  0
SECTION
  2
HEADER
  9
$ACADVER
  1
AC1015
  9
$ACADMAINTVER
 70
     6
  9
$DWGCODEPAGE
  3
ANSI_1254
  9
$INSBASE
 10
0.0
 20
0.0
 30
0.0
  9
$EXTMIN
 10
0.0
 20
0.0
 30
0.0
  9
$EXTMAX
 10
279.4
 20
215.9
 30
0.0
  9
$LIMMIN
 10
0.0
 20
0.0
  9
$LIMMAX
 10
279.4
 20
215.9
  9
$ORTHOMODE
 70
     0
  9
$REGENMODE
 70
     1
  9
$FILLMODE
 70
     1
  9
$QTEXTMODE
 70
     0
  9
$MIRRTEXT
 70
     1
  9
$LTSCALE
 40
1.0
  9
$ATTMODE
 70
     1
  9
$TEXTSIZE
 40
3.5
  9
$TRACEWID
 40
1.0
  9
$TEXTSTYLE
  7
Standard
  9
$CLAYER
  8
0
  9
$CELTYPE
  6
ByLayer
  9
$CECOLOR
 62
   256
  9
$CELTSCALE
 40
1.0
  9
$DISPSILH
 70
     0
  9
$DIMSCALE
 40
1.0
  9
$DIMASZ
 40
3.5
  9
$DIMEXO
 40
1.0
  9
$DIMDLI
 40
3.75
  9
$DIMRND
 40
0.0
  9
$DIMDLE
 40
0.0
  9
$DIMEXE
 40
1.0
  9
$DIMTP
 40
0.0
  9
$DIMTM
 40
0.0
  9
$DIMTXT
 40
3.5
  9
$DIMCEN
 40
2.5
  9
$DIMTSZ
 40
0.0
  9
$DIMTOL
 70
     0
  9
$DIMLIM
 70
     0
  9
$DIMTIH
 70
     1
  9
$DIMTOH
 70
     1
  9
$DIMSE1
 70
     0
  9
$DIMSE2
 70
     0
  9
$DIMTAD
 70
     1
  9
$DIMZIN
 70
     0
  9
$DIMBLK
  1

  9
$DIMASO
 70
     1
  9
$DIMSHO
 70
     1
  9
$DIMPOST
  1

  9
$DIMAPOST
  1

  9
$DIMALT
 70
     0
  9
$DIMALTD
 70
     3
  9
$DIMALTF
 40
0.0393700787
  9
$DIMLFAC
 40
1.0
  9
$DIMTOFL
 70
     1
  9
$DIMTVP
 40
0.0
  9
$DIMTIX
 70
     0
  9
$DIMSOXD
 70
     0
  9
$DIMSAH
 70
     0
  9
$DIMBLK1
  1

  9
$DIMBLK2
  1

  9
$DIMSTYLE
  2
ISO-25
  9
$DIMCLRD
 70
     0
  9
$DIMCLRE
 70
     0
  9
$DIMCLRT
 70
     0
  9
$DIMTFAC
 40
1.0
  9
$DIMGAP
 40
1.524
  9
$DIMJUST
 70
     0
  9
$DIMSD1
 70
     0
  9
$DIMSD2
 70
     0
  9
$DIMTOLJ
 70
     0
  9
$DIMTZIN
 70
     0
  9
$DIMALTZ
 70
     0
  9
$DIMALTTZ
 70
     0
  9
$DIMUPT
 70
     0
  9
$DIMDEC
 70
     2
  9
$DIMTDEC
 70
     2
  9
$DIMALTU
 70
     2
  9
$DIMALTTD
 70
     3
  9
$DIMTXSTY
  7
Standard
  9
$DIMAUNIT
 70
     0
  9
$DIMADEC
 70
     2
  9
$DIMALTRND
 40
0.0
  9
$DIMAZIN
 70
     0
  9
$DIMDSEP
 70
    44
  9
$DIMATFIT
 70
     3
  9
$DIMFRAC
 70
     0
  9
$DIMLDRBLK
  1

  9
$DIMLUNIT
 70
     2
  9
$DIMLWD
 70
    -2
  9
$DIMLWE
 70
    -2
  9
$DIMTMOVE
 70
     0
  9
$LUNITS
 70
     2
  9
$LUPREC
 70
     2
  9
$SKETCHINC
 40
1.0
  9
$FILLETRAD
 40
10.0
  9
$AUNITS
 70
     0
  9
$AUPREC
 70
     2
  9
$MENU
  1
.
  9
$ELEVATION
 40
0.0
  9
$PELEVATION
 40
0.0
  9
$THICKNESS
 40
0.0
  9
$LIMCHECK
 70
     0
  9
$CHAMFERA
 40
0.0
  9
$CHAMFERB
 40
0.0
  9
$CHAMFERC
 40
0.0
  9
$CHAMFERD
 40
0.0
  9
$SKPOLY
 70
     0
  9
$TDCREATE
 40
2459935.709683796
  9
$TDUCREATE
 40
2459935.584683796
  9
$TDUPDATE
 40
2459935.709683981
  9
$TDUUPDATE
 40
2459935.584683981
  9
$TDINDWG
 40
0.0000000116
  9
$TDUSRTIMER
 40
0.0000000116
  9
$USRTIMER
 70
     1
  9
$ANGBASE
 50
0.0
  9
$ANGDIR
 70
     0
  9
$PDMODE
 70
     0
  9
$PDSIZE
 40
-1.0
  9
$PLINEWID
 40
0.0
  9
$SPLFRAME
 70
     0
  9
$SPLINETYPE
 70
     6
  9
$SPLINESEGS
 70
     8
  9
$HANDSEED
  5
F5
  9
$SURFTAB1
 70
     6
  9
$SURFTAB2
 70
     6
  9
$SURFTYPE
 70
     6
  9
$SURFU
 70
     6
  9
$SURFV
 70
     6
  9
$UCSBASE
  2

  9
$UCSNAME
  2

  9
$UCSORG
 10
0.0
 20
0.0
 30
0.0
  9
$UCSXDIR
 10
1.0
 20
0.0
 30
0.0
  9
$UCSYDIR
 10
0.0
 20
1.0
 30
0.0
  9
$UCSORTHOREF
  2

  9
$UCSORTHOVIEW
 70
     0
  9
$UCSORGTOP
 10
0.0
 20
0.0
 30
0.0
  9
$UCSORGBOTTOM
 10
0.0
 20
0.0
 30
0.0
  9
$UCSORGLEFT
 10
0.0
 20
0.0
 30
0.0
  9
$UCSORGRIGHT
 10
0.0
 20
0.0
 30
0.0
  9
$UCSORGFRONT
 10
0.0
 20
0.0
 30
0.0
  9
$UCSORGBACK
 10
0.0
 20
0.0
 30
0.0
  9
$PUCSBASE
  2

  9
$PUCSNAME
  2

  9
$PUCSORG
 10
0.0
 20
0.0
 30
0.0
  9
$PUCSXDIR
 10
1.0
 20
0.0
 30
0.0
  9
$PUCSYDIR
 10
0.0
 20
1.0
 30
0.0
  9
$PUCSORTHOREF
  2

  9
$PUCSORTHOVIEW
 70
     0
  9
$PUCSORGTOP
 10
0.0
 20
0.0
 30
0.0
  9
$PUCSORGBOTTOM
 10
0.0
 20
0.0
 30
0.0
  9
$PUCSORGLEFT
 10
0.0
 20
0.0
 30
0.0
  9
$PUCSORGRIGHT
 10
0.0
 20
0.0
 30
0.0
  9
$PUCSORGFRONT
 10
0.0
 20
0.0
 30
0.0
  9
$PUCSORGBACK
 10
0.0
 20
0.0
 30
0.0
  9
$USERI1
 70
     0
  9
$USERI2
 70
     0
  9
$USERI3
 70
     0
  9
$USERI4
 70
     0
  9
$USERI5
 70
     0
  9
$USERR1
 40
0.0
  9
$USERR2
 40
0.0
  9
$USERR3
 40
0.0
  9
$USERR4
 40
0.0
  9
$USERR5
 40
0.0
  9
$WORLDVIEW
 70
     1
  9
$SHADEDGE
 70
     3
  9
$SHADEDIF
 70
    70
  9
$TILEMODE
 70
     1
  9
$MAXACTVP
 70
    64
  9
$PINSBASE
 10
0.0
 20
0.0
 30
0.0
  9
$PLIMCHECK
 70
     0
  9
$PEXTMIN
 10
1.0000000000E+20
 20
1.0000000000E+20
 30
1.0000000000E+20
  9
$PEXTMAX
 10
-1.0000000000E+20
 20
-1.0000000000E+20
 30
-1.0000000000E+20
  9
$PLIMMIN
 10
0.0
 20
0.0
  9
$PLIMMAX
 10
420.0
 20
297.0
  9
$UNITMODE
 70
     0
  9
$VISRETAIN
 70
     1
  9
$PLINEGEN
 70
     0
  9
$PSLTSCALE
 70
     1
  9
$TREEDEPTH
 70
  3020
  9
$CMLSTYLE
  2
Standard
  9
$CMLJUST
 70
     0
  9
$CMLSCALE
 40
20.0
  9
$PROXYGRAPHICS
 70
     1
  9
$MEASUREMENT
 70
     1
  9
$CELWEIGHT
370
    -1
  9
$ENDCAPS
280
     0
  9
$JOINSTYLE
280
     0
  9
$LWDISPLAY
290
     1
  9
$INSUNITS
 70
     4
  9
$HYPERLINKBASE
  1

  9
$STYLESHEET
  1

  9
$XEDIT
290
     1
  9
$CEPSNTYPE
380
     0
  9
$PSTYLEMODE
290
     1
  9
$FINGERPRINTGUID
  2
{63086fed-b423-4879-a87d-1b322a423bfb}
  9
$VERSIONGUID
  2
{FAEB1C32-E019-11D5-929B-00C0DF256EC4}
  9
$EXTNAMES
290
     1
  9
$PSVPSCALE
 40
0.0
  9
$OLESTARTUP
290
     0
  0
ENDSEC
  0
SECTION
  2
CLASSES
  0
CLASS
  1
ACDBDICTIONARYWDFLT
  2
AcDbDictionaryWithDefault
  3
ObjectDBX Classes
 90
        0
280
     0
281
     0
  0
CLASS
  1
VISUALSTYLE
  2
AcDbVisualStyle
  3
ObjectDBX Classes
 90
     4095
280
     0
281
     0
  0
CLASS
  1
MATERIAL
  2
AcDbMaterial
  3
ObjectDBX Classes
 90
     1153
280
     0
281
     0
  0
CLASS
  1
SCALE
  2
AcDbScale
  3
ObjectDBX Classes
 90
     1153
280
     0
281
     0
  0
CLASS
  1
TABLESTYLE
  2
AcDbTableStyle
  3
ObjectDBX Classes
 90
     4095
280
     0
281
     0
  0
CLASS
  1
MLEADERSTYLE
  2
AcDbMLeaderStyle
  3
ACDB_MLEADERSTYLE_CLASS
 90
     4095
280
     0
281
     0
  0
CLASS
  1
SUN
  2
AcDbSun
  3
SCENEOE
 90
     1153
280
     0
281
     0
  0
CLASS
  1
ACDBPLACEHOLDER
  2
AcDbPlaceHolder
  3
ObjectDBX Classes
 90
        0
280
     0
281
     0
  0
CLASS
  1
LAYOUT
  2
AcDbLayout
  3
ObjectDBX Classes
 90
        0
280
     0
281
     0
  0
ENDSEC
  0
SECTION
  2
TABLES
  0
TABLE
  2
VPORT
  5
8
330
0
100
AcDbSymbolTable
 70
     1
  0
VPORT
  5
29
330
8
100
AcDbSymbolTableRecord
100
AcDbViewportTableRecord
  2
*Active
 70
     0
 10
0.0
 20
0.0
 11
1.0
 21
1.0
 12
139.7
 22
107.95
 13
0.0
 23
0.0
 14
10.0
 24
10.0
 15
10.0
 25
10.0
 16
0.0
 26
0.0
 36
1.0
 17
0.0
 27
0.0
 37
0.0
 40
215.9
 41
1.2941176471
 42
50.0
 43
0.0
 44
0.0
 50
0.0
 51
0.0
 71
     0
 72
  2000
 73
     1
 74
     3
 75
     0
 76
     0
 77
     0
 78
     0
281
     0
 65
     1
110
0.0
120
0.0
130
0.0
111
1.0
121
0.0
131
0.0
112
0.0
122
1.0
132
0.0
 79
     0
146
0.0
  0
ENDTAB
  0
TABLE
  2
LTYPE
  5
5
330
0
100
AcDbSymbolTable
 70
     6
  0
LTYPE
  5
14
330
5
100
AcDbSymbolTableRecord
100
AcDbLinetypeTableRecord
  2
ByBlock
 70
     0
  3

 72
    65
 73
     0
 40
0.0
  0
LTYPE
  5
15
330
5
100
AcDbSymbolTableRecord
100
AcDbLinetypeTableRecord
  2
ByLayer
 70
     0
  3

 72
    65
 73
     0
 40
0.0
  0
LTYPE
  5
16
330
5
100
AcDbSymbolTableRecord
100
AcDbLinetypeTableRecord
  2
Continuous
 70
     0
  3
Solid line
 72
    65
 73
     0
 40
0.0
  0
LTYPE
  5
6E
330
5
100
AcDbSymbolTableRecord
100
AcDbLinetypeTableRecord
  2
HIDDEN
 70
     0
  3
Hidden __ __ __ __ __ __ __ __ __ __ __ __ __ __
 72
    65
 73
     2
 40
1.905
 49
1.27
 74
     0
 49
-0.635
 74
     0
  0
LTYPE
  5
6F
330
5
100
AcDbSymbolTableRecord
100
AcDbLinetypeTableRecord
  2
PHANTOM
 70
     0
  3
Phantom ______  __  __  ______  __  __  ______
 72
    65
 73
     6
 40
12.7
 49
6.35
 74
     0
 49
-1.27
 74
     0
 49
1.27
 74
     0
 49
-1.27
 74
     0
 49
1.27
 74
     0
 49
-1.27
 74
     0
  0
LTYPE
  5
70
330
5
100
AcDbSymbolTableRecord
100
AcDbLinetypeTableRecord
  2
CENTER
 70
     0
  3
Center ____ _ ____ _ ____ _ ____ _ ____ _ ____
 72
    65
 73
     4
 40
10.16
 49
6.35
 74
     0
 49
-1.27
 74
     0
 49
1.27
 74
     0
 49
-1.27
 74
     0
  0
LTYPE
  5
71
330
5
100
AcDbSymbolTableRecord
100
AcDbLinetypeTableRecord
  2
CENTERX2
 70
     0
  3
Center (2x) ________  __  ________  __  _____
 72
    65
 73
     4
 40
20.32
 49
12.7
 74
     0
 49
-2.54
 74
     0
 49
2.54
 74
     0
 49
-2.54
 74
     0
  0
LTYPE
  5
72
330
5
100
AcDbSymbolTableRecord
100
AcDbLinetypeTableRecord
  2
DOT2
 70
     0
  3
Dot (.5x) ........................................
 72
    65
 73
     2
 40
0.635
 49
0.0
 74
     0
 49
-0.635
 74
     0
  0
ENDTAB
  0
TABLE
  2
LAYER
  5
2
330
0
100
AcDbSymbolTable
 70
    17
  0
LAYER
  5
10
330
2
100
AcDbSymbolTableRecord
100
AcDbLayerTableRecord
  2
0
 70
     0
 62
     7
  6
Continuous
370
    -3
390
F
  0
LAYER
  5
73
330
2
100
AcDbSymbolTableRecord
100
AcDbLayerTableRecord
  2
FORMAT
 70
     0
 62
     7
  6
Continuous
370
    -3
390
F
  0
LAYER
  5
74
330
2
100
AcDbSymbolTableRecord
100
AcDbLayerTableRecord
  2
YARDIMCI_GEOMETRI
 70
     0
 62
    -6
  6
Continuous
290
     0
370
    -3
390
F
  0
LAYER
  5
75
330
2
100
AcDbSymbolTableRecord
100
AcDbLayerTableRecord
  2
SAYFA_CERCEVESI
 70
     0
 62
     7
  6
Continuous
370
    25
390
F
  0
LAYER
  5
76
330
2
100
AcDbSymbolTableRecord
100
AcDbLayerTableRecord
  2
ANTET
 70
     0
 62
     7
  6
Continuous
370
    -3
390
F
  0
LAYER
  5
77
330
2
100
AcDbSymbolTableRecord
100
AcDbLayerTableRecord
  2
OLCU
 70
     0
 62
   150
  6
Continuous
370
    -3
390
F
  0
LAYER
  5
78
330
2
100
AcDbSymbolTableRecord
100
AcDbLayerTableRecord
  2
METIN
 70
     0
 62
    96
  6
Continuous
370
    -3
390
F
  0
LAYER
  5
79
330
2
100
AcDbSymbolTableRecord
100
AcDbLayerTableRecord
  2
BALON
 70
     0
 62
     5
  6
Continuous
370
    -3
390
F
  0
LAYER
  5
7A
330
2
100
AcDbSymbolTableRecord
100
AcDbLayerTableRecord
  2
VURGU
 70
     0
 62
     7
  6
Continuous
370
    -3
390
F
  0
LAYER
  5
7B
330
2
100
AcDbSymbolTableRecord
100
AcDbLayerTableRecord
  2
SILIK
 70
     0
 62
     7
  6
Continuous
370
    -3
390
F
  0
LAYER
  5
7C
330
2
100
AcDbSymbolTableRecord
100
AcDbLayerTableRecord
  2
MODEL
 70
     0
 62
     7
  6
Continuous
370
    -3
390
F
  0
LAYER
  5
7D
330
2
100
AcDbSymbolTableRecord
100
AcDbLayerTableRecord
  2
DETAYLANDıRMA
 70
     0
 62
   190
  6
Continuous
370
    -3
390
F
  0
LAYER
  5
7E
330
2
100
AcDbSymbolTableRecord
100
AcDbLayerTableRecord
  2
TOLERANS
 70
     0
 62
   230
  6
Continuous
370
    -3
390
F
  0
LAYER
  5
7F
330
2
100
AcDbSymbolTableRecord
100
AcDbLayerTableRecord
  2
MERKEZ_CIZGILERI
 70
     0
 62
    30
  6
Continuous
370
    -3
390
F
  0
LAYER
  5
80
330
2
100
AcDbSymbolTableRecord
100
AcDbLayerTableRecord
  2
KESIT-DETAY_CIZGILERI
 70
     0
 62
     7
  6
Continuous
370
    -3
390
F
  0
LAYER
  5
81
330
2
100
AcDbSymbolTableRecord
100
AcDbLayerTableRecord
  2
\U+041E\U+0421\U+0415\U+0412\U+042B\U+0415
 70
     0
 62
     7
  6
Continuous
370
    -3
390
F
  0
LAYER
  5
82
330
2
100
AcDbSymbolTableRecord
100
AcDbLayerTableRecord
  2
\U+0412\U+041E\U+0414\U+042F\U+041D\U+042B\U+0415_\U+0417\U+041D\U+0410\U+041A\U+0418
 70
     0
 62
    11
  6
Continuous
370
    -3
390
F
  0
ENDTAB
  0
TABLE
  2
STYLE
  5
3
330
0
100
AcDbSymbolTable
 70
     1
  0
STYLE
  5
11
330
3
100
AcDbSymbolTableRecord
100
AcDbTextStyleTableRecord
  2
Standard
 70
     0
 40
0.0
 41
1.0
 50
0.0
 71
     0
 42
3.5
  3
txt
  4

  0
ENDTAB
  0
TABLE
  2
VIEW
  5
6
330
0
100
AcDbSymbolTable
 70
     0
  0
ENDTAB
  0
TABLE
  2
UCS
  5
7
330
0
100
AcDbSymbolTable
 70
     0
  0
ENDTAB
  0
TABLE
  2
APPID
  5
9
330
0
100
AcDbSymbolTable
 70
     1
  0
APPID
  5
12
330
9
100
AcDbSymbolTableRecord
100
AcDbRegAppTableRecord
  2
ACAD
 70
     0
  0
ENDTAB
  0
TABLE
  2
DIMSTYLE
  5
A
330
0
100
AcDbSymbolTable
 70
     1
100
AcDbDimStyleTable
  0
DIMSTYLE
105
27
330
A
100
AcDbSymbolTableRecord
100
AcDbDimStyleTableRecord
  2
ISO-25
 70
     0
 41
2.5
 42
0.625
 43
3.75
 44
1.25
 73
     0
 74
     0
 77
     1
 78
     8
140
2.5
141
2.5
143
0.0393700787
147
0.625
171
     3
172
     1
178
     0
271
     2
272
     2
274
     3
278
    44
283
     0
284
     8
340
11
  0
ENDTAB
  0
TABLE
  2
BLOCK_RECORD
  5
1
330
0
100
AcDbSymbolTable
 70
     2
  0
BLOCK_RECORD
  5
1F
330
1
100
AcDbSymbolTableRecord
100
AcDbBlockTableRecord
  2
*Model_Space
340
22
  0
BLOCK_RECORD
  5
1B
330
1
100
AcDbSymbolTableRecord
100
AcDbBlockTableRecord
  2
*Paper_Space
340
1E
  0
BLOCK_RECORD
  5
23
330
1
100
AcDbSymbolTableRecord
100
AcDbBlockTableRecord
  2
*Paper_Space0
340
26
  0
BLOCK_RECORD
  5
88
330
1
100
AcDbSymbolTableRecord
100
AcDbBlockTableRecord
  2
SW_CENTERMARKSYMBOL_0
340
0
102
{BLKREFS
331
93
102
}
  0
ENDTAB
  0
ENDSEC
  0
SECTION
  2
BLOCKS
  0
BLOCK
  5
20
330
1F
100
AcDbEntity
  8
0
100
AcDbBlockBegin
  2
*Model_Space
 70
     0
 10
0.0
 20
0.0
 30
0.0
  3
*Model_Space
  1

  0
ENDBLK
  5
21
330
1F
100
AcDbEntity
  8
0
100
AcDbBlockEnd
  0
BLOCK
  5
1C
330
1B
100
AcDbEntity
 67
     1
  8
0
100
AcDbBlockBegin
  2
*Paper_Space
 70
     0
 10
0.0
 20
0.0
 30
0.0
  3
*Paper_Space
  1

  0
ENDBLK
  5
1D
330
1B
100
AcDbEntity
 67
     1
  8
0
100
AcDbBlockEnd
  0
BLOCK
  5
24
330
23
100
AcDbEntity
  8
0
100
AcDbBlockBegin
  2
*Paper_Space0
 70
     0
 10
0.0
 20
0.0
 30
0.0
  3
*Paper_Space0
  1

  0
ENDBLK
  5
25
330
23
100
AcDbEntity
  8
0
100
AcDbBlockEnd
  0
BLOCK
  5
89
330
88
100
AcDbEntity
  8
0
100
AcDbBlockBegin
  2
SW_CENTERMARKSYMBOL_0
 70
     0
 10
0.0
 20
0.0
 30
0.0
  3
SW_CENTERMARKSYMBOL_0
  1

  0
LINE
  5
8B
330
88
100
AcDbEntity
  8
FORMAT
 62
     0
100
AcDbLine
 10
0.0
 20
0.0
 30
0.0
 11
0.0
 21
2.5
 31
0.0
  0
LINE
  5
8C
330
88
100
AcDbEntity
  8
FORMAT
 62
     0
100
AcDbLine
 10
0.0
 20
0.0
 30
0.0
 11
-2.5
 21
0.0
 31
0.0
  0
LINE
  5
8D
330
88
100
AcDbEntity
  8
FORMAT
 62
     0
100
AcDbLine
 10
0.0
 20
0.0
 30
0.0
 11
0.0
 21
-2.5
 31
0.0
  0
LINE
  5
8E
330
88
100
AcDbEntity
  8
FORMAT
 62
     0
100
AcDbLine
 10
0.0
 20
0.0
 30
0.0
 11
2.5
 21
0.0
 31
0.0
  0
LINE
  5
8F
330
88
100
AcDbEntity
  8
FORMAT
 62
     0
100
AcDbLine
 10
0.0
 20
5.0
 30
0.0
 11
0.0
 21
72.35
 31
0.0
  0
LINE
  5
90
330
88
100
AcDbEntity
  8
FORMAT
 62
     0
100
AcDbLine
 10
-5.0
 20
0.0
 30
0.0
 11
-72.35
 21
0.0
 31
0.0
  0
LINE
  5
91
330
88
100
AcDbEntity
  8
FORMAT
 62
     0
100
AcDbLine
 10
0.0
 20
-5.0
 30
0.0
 11
0.0
 21
-72.35
 31
0.0
  0
LINE
  5
92
330
88
100
AcDbEntity
  8
FORMAT
 62
     0
100
AcDbLine
 10
5.0
 20
0.0
 30
0.0
 11
72.35
 21
0.0
 31
0.0
  0
ENDBLK
  5
8A
330
88
100
AcDbEntity
  8
0
100
AcDbBlockEnd
  0
ENDSEC
  0
SECTION
  2
ENTITIES
  0
CIRCLE
  5
83
330
1F
100
AcDbEntity
  8
0
  6
Continuous
 62
     7
370
    25
100
AcDbCircle
 10
137.9424909615
 20
108.5958316346
 30
0.0
 40
57.14999999999995
  0
CIRCLE
  5
84
330
1F
100
AcDbEntity
  8
0
  6
Continuous
 62
     7
370
    25
100
AcDbCircle
 10
137.9424909615
 20
108.5958316346
 30
0.0
 40
51.14999999999995
  0
CIRCLE
  5
85
330
1F
100
AcDbEntity
  8
0
  6
Continuous
 62
     7
370
    25
100
AcDbCircle
 10
137.9424909615
 20
108.5958316346
 30
0.0
 40
59.65000000000001
  0
CIRCLE
  5
86
330
1F
100
AcDbEntity
  8
0
  6
Continuous
 62
     7
370
    25
100
AcDbCircle
 10
137.9424909615
 20
108.5958316346
 30
0.0
 40
69.85
  0
CIRCLE
  5
87
330
1F
100
AcDbEntity
  8
0
  6
Continuous
 62
     7
370
    25
100
AcDbCircle
 10
137.9424909615
 20
108.5958316346
 30
0.0
 40
51.10000000000002
  0
INSERT
  5
93
330
1F
100
AcDbEntity
  8
FORMAT
 62
     7
100
AcDbBlockReference
  2
SW_CENTERMARKSYMBOL_0
 10
137.9424909615
 20
108.5958316346
 30
0.0
  0
LINE
  5
94
330
1F
100
AcDbEntity
  8
0
  6
Continuous
 62
     7
370
    25
100
AcDbLine
 10
559.5857377042
 20
178.4458316346
 30
0.0
 11
531.5857377042
 21
171.0958316346
 31
0.0
  0
LINE
  5
95
330
1F
100
AcDbEntity
  8
0
  6
Continuous
 62
     7
370
    25
100
AcDbLine
 10
531.5857377042
 20
46.0958316346
 30
0.0
 11
559.5857377042
 21
38.7458316346
 31
0.0
  0
LINE
  5
96
330
1F
100
AcDbEntity
  8
0
  6
Continuous
 62
     7
370
    25
100
AcDbLine
 10
671.5857377042
 20
178.4458316346
 30
0.0
 11
559.5857377042
 21
178.4458316346
 31
0.0
  0
LINE
  5
97
330
1F
100
AcDbEntity
  8
0
  6
Continuous
 62
     7
370
    25
100
AcDbLine
 10
559.5857377042
 20
38.7458316346
 30
0.0
 11
671.5857377042
 21
38.7458316346
 31
0.0
  0
LINE
  5
98
330
1F
100
AcDbEntity
  8
0
  6
Continuous
 62
     7
370
    25
100
AcDbLine
 10
531.5857377042
 20
171.0958316346
 30
0.0
 11
445.5857377042
 21
171.0958316346
 31
0.0
  0
LINE
  5
99
330
1F
100
AcDbEntity
  8
0
  6
Continuous
 62
     7
370
    25
100
AcDbLine
 10
445.5857377042
 20
46.0958316346
 30
0.0
 11
531.5857377042
 21
46.0958316346
 31
0.0
  0
LINE
  5
9A
330
1F
100
AcDbEntity
  8
0
  6
Continuous
 62
     7
370
    25
100
AcDbLine
 10
915.5857377042
 20
168.2458316346
 30
0.0
 11
671.5857377042
 21
168.2458316346
 31
0.0
  0
LINE
  5
9B
330
1F
100
AcDbEntity
  8
0
  6
Continuous
 62
     7
370
    25
100
AcDbLine
 10
671.5857377042
 20
48.9458316346
 30
0.0
 11
915.5857377042
 21
48.9458316346
 31
0.0
  0
LINE
  5
9C
330
1F
100
AcDbEntity
  8
0
  6
Continuous
 62
     7
370
    25
100
AcDbLine
 10
965.5857377042
 20
165.7458316346
 30
0.0
 11
915.5857377042
 21
165.7458316346
 31
0.0
  0
LINE
  5
9D
330
1F
100
AcDbEntity
  8
0
  6
Continuous
 62
     7
370
    25
100
AcDbLine
 10
915.5857377042
 20
51.4458316346
 30
0.0
 11
965.5857377042
 21
51.4458316346
 31
0.0
  0
LINE
  5
9E
330
1F
100
AcDbEntity
  8
0
  6
Continuous
 62
     7
370
    25
100
AcDbLine
 10
531.5857377042
 20
171.0958316346
 30
0.0
 11
531.5857377042
 21
46.0958316346
 31
0.0
  0
LINE
  5
9F
330
1F
100
AcDbEntity
  8
0
  6
Continuous
 62
     7
370
    25
100
AcDbLine
 10
559.5857377042
 20
178.4458316346
 30
0.0
 11
559.5857377042
 21
38.7458316346
 31
0.0
  0
LINE
  5
A0
330
1F
100
AcDbEntity
  8
0
  6
Continuous
 62
     7
370
    25
100
AcDbLine
 10
671.5857377042
 20
178.4458316346
 30
0.0
 11
671.5857377042
 21
38.7458316346
 31
0.0
  0
LINE
  5
A1
330
1F
100
AcDbEntity
  8
0
  6
Continuous
 62
     7
370
    25
100
AcDbLine
 10
445.5857377042
 20
171.0958316346
 30
0.0
 11
445.5857377042
 21
46.0958316346
 31
0.0
  0
LINE
  5
A2
330
1F
100
AcDbEntity
  8
0
  6
Continuous
 62
     7
370
    25
100
AcDbLine
 10
915.5857377042
 20
168.2458316346
 30
0.0
 11
915.5857377042
 21
48.9458316346
 31
0.0
  0
LINE
  5
A3
330
1F
100
AcDbEntity
  8
0
  6
Continuous
 62
     7
370
    25
100
AcDbLine
 10
965.5857377042
 20
165.7458316346
 30
0.0
 11
965.5857377042
 21
51.4458316346
 31
0.0
  0
LINE
  5
A4
330
1F
100
AcDbEntity
  8
0
  6
Continuous
 62
     7
370
    25
100
AcDbLine
 10
-251.4425855298
 20
38.7458316346
 30
0.0
 11
-223.4425855298
 21
46.0958316346
 31
0.0
  0
LINE
  5
A5
330
1F
100
AcDbEntity
  8
0
  6
Continuous
 62
     7
370
    25
100
AcDbLine
 10
-223.4425855298
 20
171.0958316346
 30
0.0
 11
-251.4425855298
 21
178.4458316346
 31
0.0
  0
LINE
  5
A6
330
1F
100
AcDbEntity
  8
0
  6
Continuous
 62
     7
370
    25
100
AcDbLine
 10
-363.4425855298
 20
38.7458316346
 30
0.0
 11
-251.4425855298
 21
38.7458316346
 31
0.0
  0
LINE
  5
A7
330
1F
100
AcDbEntity
  8
0
  6
Continuous
 62
     7
370
    25
100
AcDbLine
 10
-251.4425855298
 20
178.4458316346
 30
0.0
 11
-363.4425855298
 21
178.4458316346
 31
0.0
  0
LINE
  5
A8
330
1F
100
AcDbEntity
  8
0
  6
Continuous
 62
     7
370
    25
100
AcDbLine
 10
-223.4425855298
 20
46.0958316346
 30
0.0
 11
-137.4425855298
 21
46.0958316346
 31
0.0
  0
LINE
  5
A9
330
1F
100
AcDbEntity
  8
0
  6
Continuous
 62
     7
370
    25
100
AcDbLine
 10
-137.4425855298
 20
171.0958316346
 30
0.0
 11
-223.4425855298
 21
171.0958316346
 31
0.0
  0
LINE
  5
AA
330
1F
100
AcDbEntity
  8
0
  6
Continuous
 62
     7
370
    25
100
AcDbLine
 10
-607.4425855298
 20
48.9458316346
 30
0.0
 11
-363.4425855298
 21
48.9458316346
 31
0.0
  0
LINE
  5
AB
330
1F
100
AcDbEntity
  8
0
  6
Continuous
 62
     7
370
    25
100
AcDbLine
 10
-363.4425855298
 20
168.2458316346
 30
0.0
 11
-607.4425855298
 21
168.2458316346
 31
0.0
  0
LINE
  5
AC
330
1F
100
AcDbEntity
  8
0
  6
Continuous
 62
     7
370
    25
100
AcDbLine
 10
-657.4425855298
 20
51.4458316346
 30
0.0
 11
-607.4425855298
 21
51.4458316346
 31
0.0
  0
LINE
  5
AD
330
1F
100
AcDbEntity
  8
0
  6
Continuous
 62
     7
370
    25
100
AcDbLine
 10
-607.4425855298
 20
165.7458316346
 30
0.0
 11
-657.4425855298
 21
165.7458316346
 31
0.0
  0
LINE
  5
AE
330
1F
100
AcDbEntity
  8
0
  6
Continuous
 62
     7
370
    25
100
AcDbLine
 10
-223.4425855298
 20
108.5958316346
 30
0.0
 11
-223.4425855298
 21
171.0958316346
 31
0.0
  0
LINE
  5
AF
330
1F
100
AcDbEntity
  8
0
  6
Continuous
 62
     7
370
    25
100
AcDbLine
 10
-223.4425855298
 20
46.0958316346
 30
0.0
 11
-223.4425855298
 21
108.5958316346
 31
0.0
  0
LINE
  5
B0
330
1F
100
AcDbEntity
  8
0
  6
Continuous
 62
     7
370
    25
100
AcDbLine
 10
-251.4425855298
 20
108.5958316346
 30
0.0
 11
-251.4425855298
 21
178.4458316346
 31
0.0
  0
LINE
  5
B1
330
1F
100
AcDbEntity
  8
0
  6
Continuous
 62
     7
370
    25
100
AcDbLine
 10
-251.4425855298
 20
38.7458316346
 30
0.0
 11
-251.4425855298
 21
108.5958316346
 31
0.0
  0
LINE
  5
B2
330
1F
100
AcDbEntity
  8
0
  6
Continuous
 62
     7
370
    25
100
AcDbLine
 10
-363.4425855298
 20
108.5958316346
 30
0.0
 11
-363.4425855298
 21
178.4458316346
 31
0.0
  0
LINE
  5
B3
330
1F
100
AcDbEntity
  8
0
  6
Continuous
 62
     7
370
    25
100
AcDbLine
 10
-363.4425855298
 20
38.7458316346
 30
0.0
 11
-363.4425855298
 21
108.5958316346
 31
0.0
  0
LINE
  5
B4
330
1F
100
AcDbEntity
  8
0
  6
Continuous
 62
     7
370
    25
100
AcDbLine
 10
-137.4425855298
 20
108.5958316346
 30
0.0
 11
-137.4425855298
 21
171.0958316346
 31
0.0
  0
LINE
  5
B5
330
1F
100
AcDbEntity
  8
0
  6
Continuous
 62
     7
370
    25
100
AcDbLine
 10
-137.4425855298
 20
46.0958316346
 30
0.0
 11
-137.4425855298
 21
108.5958316346
 31
0.0
  0
LINE
  5
B6
330
1F
100
AcDbEntity
  8
0
  6
Continuous
 62
     7
370
    25
100
AcDbLine
 10
-607.4425855298
 20
108.5958316346
 30
0.0
 11
-607.4425855298
 21
168.2458316346
 31
0.0
  0
LINE
  5
B7
330
1F
100
AcDbEntity
  8
0
  6
Continuous
 62
     7
370
    25
100
AcDbLine
 10
-607.4425855298
 20
48.9458316346
 30
0.0
 11
-607.4425855298
 21
108.5958316346
 31
0.0
  0
LINE
  5
B8
330
1F
100
AcDbEntity
  8
0
  6
Continuous
 62
     7
370
    25
100
AcDbLine
 10
-657.4425855298
 20
108.5958316346
 30
0.0
 11
-657.4425855298
 21
165.7458316346
 31
0.0
  0
LINE
  5
B9
330
1F
100
AcDbEntity
  8
0
  6
Continuous
 62
     7
370
    25
100
AcDbLine
 10
-657.4425855298
 20
51.4458316346
 30
0.0
 11
-657.4425855298
 21
108.5958316346
 31
0.0
  0
LINE
  5
BA
330
1F
100
AcDbEntity
  8
0
  6
Continuous
 62
     7
370
    25
100
AcDbLine
 10
68.0924909615
 20
456.117753388
 30
0.0
 11
75.4424909615
 21
428.117753388
 31
0.0
  0
LINE
  5
BB
330
1F
100
AcDbEntity
  8
0
  6
Continuous
 62
     7
370
    25
100
AcDbLine
 10
200.4424909615
 20
428.117753388
 30
0.0
 11
207.7924909615
 21
456.117753388
 31
0.0
  0
LINE
  5
BC
330
1F
100
AcDbEntity
  8
0
  6
Continuous
 62
     7
370
    25
100
AcDbLine
 10
68.0924909615
 20
568.117753388
 30
0.0
 11
68.0924909615
 21
456.117753388
 31
0.0
  0
LINE
  5
BD
330
1F
100
AcDbEntity
  8
0
  6
Continuous
 62
     7
370
    25
100
AcDbLine
 10
207.7924909615
 20
456.117753388
 30
0.0
 11
207.7924909615
 21
568.117753388
 31
0.0
  0
LINE
  5
BE
330
1F
100
AcDbEntity
  8
0
  6
Continuous
 62
     7
370
    25
100
AcDbLine
 10
75.4424909615
 20
428.117753388
 30
0.0
 11
75.4424909615
 21
342.117753388
 31
0.0
  0
LINE
  5
BF
330
1F
100
AcDbEntity
  8
0
  6
Continuous
 62
     7
370
    25
100
AcDbLine
 10
200.4424909615
 20
342.117753388
 30
0.0
 11
200.4424909615
 21
428.117753388
 31
0.0
  0
LINE
  5
C0
330
1F
100
AcDbEntity
  8
0
  6
Continuous
 62
     7
370
    25
100
AcDbLine
 10
78.2924909615
 20
812.117753388
 30
0.0
 11
78.2924909615
 21
568.117753388
 31
0.0
  0
LINE
  5
C1
330
1F
100
AcDbEntity
  8
0
  6
Continuous
 62
     7
370
    25
100
AcDbLine
 10
197.5924909615
 20
568.117753388
 30
0.0
 11
197.5924909615
 21
812.117753388
 31
0.0
  0
LINE
  5
C2
330
1F
100
AcDbEntity
  8
0
  6
Continuous
 62
     7
370
    25
100
AcDbLine
 10
80.7924909615
 20
862.117753388
 30
0.0
 11
80.7924909615
 21
812.117753388
 31
0.0
  0
LINE
  5
C3
330
1F
100
AcDbEntity
  8
0
  6
Continuous
 62
     7
370
    25
100
AcDbLine
 10
195.0924909615
 20
812.117753388
 30
0.0
 11
195.0924909615
 21
862.117753388
 31
0.0
  0
LINE
  5
C4
330
1F
100
AcDbEntity
  8
0
  6
Continuous
 62
     7
370
    25
100
AcDbLine
 10
75.4424909615
 20
428.117753388
 30
0.0
 11
200.4424909615
 21
428.117753388
 31
0.0
  0
LINE
  5
C5
330
1F
100
AcDbEntity
  8
0
  6
Continuous
 62
     7
370
    25
100
AcDbLine
 10
68.0924909615
 20
456.117753388
 30
0.0
 11
207.7924909615
 21
456.117753388
 31
0.0
  0
LINE
  5
C6
330
1F
100
AcDbEntity
  8
0
  6
Continuous
 62
     7
370
    25
100
AcDbLine
 10
68.0924909615
 20
568.117753388
 30
0.0
 11
207.7924909615
 21
568.117753388
 31
0.0
  0
LINE
  5
C7
330
1F
100
AcDbEntity
  8
0
  6
Continuous
 62
     7
370
    25
100
AcDbLine
 10
75.4424909615
 20
342.117753388
 30
0.0
 11
200.4424909615
 21
342.117753388
 31
0.0
  0
LINE
  5
C8
330
1F
100
AcDbEntity
  8
0
  6
Continuous
 62
     7
370
    25
100
AcDbLine
 10
78.2924909615
 20
812.117753388
 30
0.0
 11
197.5924909615
 21
812.117753388
 31
0.0
  0
LINE
  5
C9
330
1F
100
AcDbEntity
  8
0
  6
Continuous
 62
     7
370
    25
100
AcDbLine
 10
80.7924909615
 20
862.117753388
 30
0.0
 11
195.0924909615
 21
862.117753388
 31
0.0
  0
LINE
  5
CA
330
1F
100
AcDbEntity
  8
0
  6
Continuous
 62
     7
370
    25
100
AcDbLine
 10
207.7924909615
 20
-274.6045322229
 30
0.0
 11
200.4424909615
 21
-246.6045322229
 31
0.0
  0
LINE
  5
CB
330
1F
100
AcDbEntity
  8
0
  6
Continuous
 62
     7
370
    25
100
AcDbLine
 10
75.4424909615
 20
-246.6045322229
 30
0.0
 11
68.0924909615
 21
-274.6045322229
 31
0.0
  0
LINE
  5
CC
330
1F
100
AcDbEntity
  8
0
  6
Continuous
 62
     7
370
    25
100
AcDbLine
 10
207.7924909615
 20
-386.6045322229
 30
0.0
 11
207.7924909615
 21
-274.6045322229
 31
0.0
  0
LINE
  5
CD
330
1F
100
AcDbEntity
  8
0
  6
Continuous
 62
     7
370
    25
100
AcDbLine
 10
68.0924909615
 20
-274.6045322229
 30
0.0
 11
68.0924909615
 21
-386.6045322229
 31
0.0
  0
LINE
  5
CE
330
1F
100
AcDbEntity
  8
0
  6
Continuous
 62
     7
370
    25
100
AcDbLine
 10
200.4424909615
 20
-246.6045322229
 30
0.0
 11
200.4424909615
 21
-160.6045322229
 31
0.0
  0
LINE
  5
CF
330
1F
100
AcDbEntity
  8
0
  6
Continuous
 62
     7
370
    25
100
AcDbLine
 10
75.4424909615
 20
-160.6045322229
 30
0.0
 11
75.4424909615
 21
-246.6045322229
 31
0.0
  0
LINE
  5
D0
330
1F
100
AcDbEntity
  8
0
  6
Continuous
 62
     7
370
    25
100
AcDbLine
 10
197.5924909615
 20
-630.6045322229
 30
0.0
 11
197.5924909615
 21
-386.6045322229
 31
0.0
  0
LINE
  5
D1
330
1F
100
AcDbEntity
  8
0
  6
Continuous
 62
     7
370
    25
100
AcDbLine
 10
78.2924909615
 20
-386.6045322229
 30
0.0
 11
78.2924909615
 21
-630.6045322229
 31
0.0
  0
LINE
  5
D2
330
1F
100
AcDbEntity
  8
0
  6
Continuous
 62
     7
370
    25
100
AcDbLine
 10
195.0924909615
 20
-680.6045322229
 30
0.0
 11
195.0924909615
 21
-630.6045322229
 31
0.0
  0
LINE
  5
D3
330
1F
100
AcDbEntity
  8
0
  6
Continuous
 62
     7
370
    25
100
AcDbLine
 10
80.7924909615
 20
-630.6045322229
 30
0.0
 11
80.7924909615
 21
-680.6045322229
 31
0.0
  0
LINE
  5
D4
330
1F
100
AcDbEntity
  8
0
  6
Continuous
 62
     7
370
    25
100
AcDbLine
 10
200.4424909615
 20
-246.6045322229
 30
0.0
 11
75.4424909615
 21
-246.6045322229
 31
0.0
  0
LINE
  5
D5
330
1F
100
AcDbEntity
  8
0
  6
Continuous
 62
     7
370
    25
100
AcDbLine
 10
207.7924909615
 20
-274.6045322229
 30
0.0
 11
68.0924909615
 21
-274.6045322229
 31
0.0
  0
LINE
  5
D6
330
1F
100
AcDbEntity
  8
0
  6
Continuous
 62
     7
370
    25
100
AcDbLine
 10
207.7924909615
 20
-386.6045322229
 30
0.0
 11
68.0924909615
 21
-386.6045322229
 31
0.0
  0
LINE
  5
D7
330
1F
100
AcDbEntity
  8
0
  6
Continuous
 62
     7
370
    25
100
AcDbLine
 10
200.4424909615
 20
-160.6045322229
 30
0.0
 11
75.4424909615
 21
-160.6045322229
 31
0.0
  0
LINE
  5
D8
330
1F
100
AcDbEntity
  8
0
  6
Continuous
 62
     7
370
    25
100
AcDbLine
 10
197.5924909615
 20
-630.6045322229
 30
0.0
 11
78.2924909615
 21
-630.6045322229
 31
0.0
  0
LINE
  5
D9
330
1F
100
AcDbEntity
  8
0
  6
Continuous
 62
     7
370
    25
100
AcDbLine
 10
195.0924909615
 20
-680.6045322229
 30
0.0
 11
80.7924909615
 21
-680.6045322229
 31
0.0
  0
LINE
  5
DA
330
1F
100
AcDbEntity
  8
0
  6
Continuous
 62
     7
370
    25
100
AcDbLine
 10
369.5948661617
 20
-236.9446225912
 30
0.0
 11
404.950205221
 21
-257.3548253868
 31
0.0
  0
LINE
  5
DB
330
1F
100
AcDbEntity
  8
0
  6
Continuous
 62
     7
370
    25
100
AcDbLine
 10
462.0955607911
 20
-158.3654404167
 30
0.0
 11
426.7402217318
 21
-137.9552376211
 31
0.0
  0
LINE
  5
DC
330
1F
100
AcDbEntity
  8
0
  6
Continuous
 62
     7
370
    25
100
AcDbLine
 10
403.7003068052
 20
-259.5199475428
 30
0.0
 11
576.2343614147
 21
-359.1217371851
 31
0.0
  0
LINE
  5
DD
330
1F
100
AcDbEntity
  8
0
  6
Continuous
 62
     7
370
    25
100
AcDbLine
 10
635.8795138164
 20
-255.8021079031
 30
0.0
 11
463.3454592069
 21
-156.2003182607
 31
0.0
  0
LINE
  5
DE
330
1F
100
AcDbEntity
  8
0
  6
Continuous
 62
     7
370
    25
100
AcDbLine
 10
571.1347758783
 20
-367.9554355814
 30
0.0
 11
650.3307353712
 21
-413.6742898435
 31
0.0
  0
LINE
  5
DF
330
1F
100
AcDbEntity
  8
0
  6
Continuous
 62
     7
370
    25
100
AcDbLine
 10
720.1750588458
 20
-292.6872637689
 30
0.0
 11
640.9790993529
 21
-246.9684095068
 31
0.0
  0
LINE
  5
E0
330
1F
100
AcDbEntity
  8
0
  6
Continuous
 62
     7
370
    25
100
AcDbLine
 10
657.4213725585
 20
-416.3658347816
 30
0.0
 11
680.1489480501
 21
-421.146870092
 31
0.0
  0
LINE
  5
E1
330
1F
100
AcDbEntity
  8
0
  6
Continuous
 62
     7
370
    25
100
AcDbLine
 10
741.5576820261
 20
-314.7722969104
 30
0.0
 11
726.0517736501
 21
-297.4816117939
 31
0.0
  0
LINE
  5
E2
330
1F
100
AcDbEntity
  8
0
  6
Continuous
 62
     7
370
    25
100
AcDbLine
 10
676.7305693833
 20
-420.4277705507
 30
0.0
 11
734.6156097689
 21
-453.8440930789
 31
0.0
  0
LINE
  5
E3
330
1F
100
AcDbEntity
  8
0
  6
Continuous
 62
     7
370
    25
100
AcDbLine
 10
797.1105305586
 20
-345.5879852813
 30
0.0
 11
739.2254901731
 21
-312.1716627531
 31
0.0
  0
LWPOLYLINE
  5
E4
330
1F
100
AcDbEntity
  8
0
  6
Continuous
 62
     7
370
    25
100
AcDbPolyline
 90
       81
 70
   128
 43
0.0
 10
438.5786964915
 20
-164.1210683108
 10
438.4541223948
 20
-160.5316655857
 10
438.0811681453
 20
-157.1082229126
 10
437.4621331299
 20
-153.871846954
 10
436.6008339055
 20
-150.8424910439
 10
435.5025806681
 20
-148.0388321688
 10
434.1741445141
 20
-145.478155818
 10
432.6237156943
 20
-143.1762494127
 10
430.8608531178
 20
-141.1473049713
 10
428.8964254186
 20
-139.4038316112
 10
426.7425439467
 20
-137.9565784252
 10
424.4124880977
 20
-136.8144682105
 10
421.9206234407
 20
-135.9845424564
 10
419.2823131499
 20
-135.4719179311
 10
416.5138232856
 20
-135.2797551354
 10
413.6322225084
 20
-135.4092388166
 10
410.6552768454
 20
-135.859570665
 10
407.6013401564
 20
-136.6279742349
 10
404.4892409767
 20
-137.7097120627
 10
401.3381664327
 20
-139.098114875
 10
398.1675439467
 20
-140.7846227069
 10
394.9969214607
 20
-142.7588376767
 10
391.8458469167
 20
-145.0085880926
 10
388.7337477371
 20
-147.5200034952
 10
385.6798110481
 20
-150.2776001734
 10
382.7028653851
 20
-153.2643766267
 10
379.8212646079
 20
-156.461918385
 10
377.0527747436
 20
-159.8505115401
 10
374.4144644528
 20
-163.4092642885
 10
371.9225997957
 20
-167.116235736
 10
369.5925439467
 20
-170.9485711708
 10
367.4386624749
 20
-174.8826429708
 10
365.4742347757
 20
-178.894196275
 10
363.7113721992
 20
-182.9584985234
 10
362.1609433793
 20
-187.050491941
 10
360.8325072254
 20
-191.1449480277
 10
359.734253988
 20
-195.2166231003
 10
358.8729547636
 20
-199.2404139278
 10
358.2539197482
 20
-203.1915125018
 10
357.8809654987
 20
-207.0455589858
 10
357.7563914019
 20
-210.7787919015
 10
357.8809654987
 20
-214.3681946266
 10
358.2539197482
 20
-217.7916372997
 10
358.8729547636
 20
-221.0280132583
 10
359.734253988
 20
-224.0573691685
 10
360.8325072254
 20
-226.8610280436
 10
362.1609433793
 20
-229.4217043944
 10
363.7113721992
 20
-231.7236107997
 10
365.4742347757
 20
-233.752555241
 10
367.4386624749
 20
-235.4960286012
 10
369.5925439467
 20
-236.9432817872
 10
371.9225997957
 20
-238.0853920019
 10
374.4144644528
 20
-238.915317756
 10
377.0527747436
 20
-239.4279422812
 10
379.8212646079
 20
-239.620105077
 10
382.7028653851
 20
-239.4906213957
 10
385.6798110481
 20
-239.0402895474
 10
388.7337477371
 20
-238.2718859775
 10
391.8458469167
 20
-237.1901481497
 10
394.9969214607
 20
-235.8017453373
 10
398.1675439467
 20
-234.1152375054
 10
401.3381664327
 20
-232.1410225357
 10
404.4892409767
 20
-229.8912721198
 10
407.6013401564
 20
-227.3798567172
 10
410.6552768454
 20
-224.622260039
 10
413.6322225084
 20
-221.6354835857
 10
416.5138232856
 20
-218.4379418274
 10
419.2823131499
 20
-215.0493486722
 10
421.9206234407
 20
-211.4905959238
 10
424.4124880977
 20
-207.7836244764
 10
426.7425439467
 20
-203.9512890415
 10
428.8964254186
 20
-200.0172172415
 10
430.8608531178
 20
-196.0056639373
 10
432.6237156943
 20
-191.941361689
 10
434.1741445141
 20
-187.8493682713
 10
435.5025806681
 20
-183.7549121846
 10
436.6008339055
 20
-179.6832371121
 10
437.4621331299
 20
-175.6594462845
 10
438.0811681453
 20
-171.7083477105
 10
438.4541223948
 20
-167.8543012266
 10
438.5786964915
 20
-164.1210683108
  0
LWPOLYLINE
  5
E5
330
1F
100
AcDbEntity
  8
0
  6
Continuous
 62
     7
370
    25
100
AcDbPolyline
 90
       76
 70
   128
 43
0.0
 10
434.3360558044
 20
-166.5702926463
 10
434.2092077426
 20
-163.1486264369
 10
433.8295533052
 20
-159.8974164122
 10
433.1997554952
 20
-156.8394674747
 10
432.3242318918
 20
-153.9962289389
 10
431.209123664
 20
-151.3876440804
 10
429.8622524949
 20
-149.0320102476
 10
428.2930657179
 20
-146.9458505194
 10
426.5125700508
 20
-145.1437978073
 10
424.5332543915
 20
-143.6384922165
 10
422.3690022172
 20
-142.4404923839
 10
420.0349942018
 20
-141.5582014177
 10
417.5476017346
 20
-140.9978079551
 10
414.9242720866
 20
-140.7632427536
 10
412.1834060304
 20
-140.8561511195
 10
409.344228772
 20
-141.2758813675
 10
406.4266551
 20
-142.0194893913
 10
403.4511496975
 20
-143.081759315
 10
400.4385835969
 20
-144.4552400784
 10
397.4100877849
 20
-146.1302977006
 10
394.3869049836
 20
-148.0951828561
 10
391.3902406482
 20
-150.3361132871
 10
388.441114226
 20
-152.8373704769
 10
385.5602117199
 20
-155.5814099035
 10
382.767740591
 20
-158.5489841017
 10
380.0832880179
 20
-161.7192776708
 10
377.5256835066
 20
-165.0700532794
 10
375.1128668151
 20
-168.577807644
 10
372.861762119
 20
-172.217936388
 10
370.7881593002
 20
-175.9649066238
 10
368.9066031926
 20
-179.7924360473
 10
367.2302915605
 20
-183.6736772898
 10
365.7709825254
 20
-187.5814062325
 10
364.5389120919
 20
-191.4882129647
 10
363.5427223486
 20
-195.3666940442
 10
362.789400851
 20
-199.1896447127
 10
362.284231608
 20
-202.9302497183
 10
362.030758019
 20
-206.5622714045
 10
362.030758019
 20
-210.0602337486
 10
362.284231608
 20
-213.3996010581
 10
362.789400851
 20
-216.5569500707
 10
363.5427223486
 20
-219.5101342517
 10
364.5389120919
 20
-222.2384391357
 10
365.7709825254
 20
-224.7227276245
 10
367.2302915605
 20
-226.9455742191
 10
368.9066031926
 20
-228.8913872479
 10
370.7881593002
 20
-230.5465182304
 10
372.861762119
 20
-231.8993576121
 10
375.1128668151
 20
-232.9404161967
 10
377.5256835066
 20
-233.6623917063
 10
380.0832880179
 20
-234.0602200014
 10
382.767740591
 20
-234.1311106023
 10
385.5602117199
 20
-233.8745662623
 10
388.441114226
 20
-233.2923864559
 10
391.3902406482
 20
-232.3886547558
 10
394.3869049836
 20
-231.1697101908
 10
397.4100877849
 20
-229.6441027811
 10
400.4385835969
 20
-227.8225335666
 10
403.4511496975
 20
-225.7177795465
 10
406.4266551
 20
-223.3446040579
 10
409.344228772
 20
-220.7196532219
 10
412.1834060304
 20
-217.8613391825
 10
414.9242720866
 20
-214.7897109589
 10
417.5476017346
 20
-211.5263138163
 10
420.0349942018
 20
-208.0940381409
 10
422.3690022172
 20
-204.5169588803
 10
424.5332543915
 20
-200.8201666755
 10
426.5125700508
 20
-197.0295918677
 10
428.2930657179
 20
-193.1718226157
 10
429.8622524949
 20
-189.2739183988
 10
431.209123664
 20
-185.3632202146
 10
432.3242318918
 20
-181.467158801
 10
433.1997554952
 20
-177.6130622295
 10
433.8295533052
 20
-173.8279642183
 10
434.2092077426
 20
-170.1384145105
 10
434.3360558044
 20
-166.5702926463
  0
LWPOLYLINE
  5
E6
330
1F
100
AcDbEntity
  8
0
  6
Continuous
 62
     7
370
    25
100
AcDbPolyline
 90
       12
 70
   128
 43
0.0
 10
473.9340355509
 20
-184.5312711064
 10
473.8094614541
 20
-180.9418683813
 10
473.4365072046
 20
-177.5184257082
 10
472.8174721892
 20
-174.2820497496
 10
471.9561729648
 20
-171.2526938394
 10
470.8579197274
 20
-168.4490349643
 10
469.5294835735
 20
-165.8883586135
 10
467.9790547536
 20
-163.5864522082
 10
466.2161921771
 20
-161.5575077669
 10
464.2517644779
 20
-159.8140344067
 10
462.0978830061
 20
-158.3667812207
 10
462.0955607911
 20
-158.3654404167
  0
LWPOLYLINE
  5
E7
330
1F
100
AcDbEntity
  8
0
  6
Continuous
 62
     7
370
    25
100
AcDbPolyline
 90
       31
 70
   128
 43
0.0
 10
404.950205221
 20
-257.3548253868
 10
407.2779388551
 20
-258.4955947975
 10
409.7698035121
 20
-259.3255205516
 10
412.4081138029
 20
-259.8381450768
 10
415.1766036672
 20
-260.0303078726
 10
418.0582044444
 20
-259.9008241913
 10
421.0351501074
 20
-259.4504923429
 10
424.0890867964
 20
-258.6820887731
 10
427.2011859761
 20
-257.6003509452
 10
430.3522605201
 20
-256.2119481329
 10
433.5228830061
 20
-254.525440301
 10
436.693505492
 20
-252.5512253312
 10
439.8445800361
 20
-250.3014749153
 10
442.9566792157
 20
-247.7900595127
 10
446.0106159047
 20
-245.0324628346
 10
448.9875615677
 20
-242.0456863813
 10
451.8691623449
 20
-238.8481446229
 10
454.6376522092
 20
-235.4595514678
 10
457.2759625
 20
-231.9007987194
 10
459.7678271571
 20
-228.193827272
 10
462.0978830061
 20
-224.3614918371
 10
464.2517644779
 20
-220.4274200371
 10
466.2161921771
 20
-216.4158667329
 10
467.9790547536
 20
-212.3515644845
 10
469.5294835735
 20
-208.2595710669
 10
470.8579197274
 20
-204.1651149802
 10
471.9561729648
 20
-200.0934399076
 10
472.8174721892
 20
-196.0696490801
 10
473.4365072046
 20
-192.1185505061
 10
473.8094614541
 20
-188.2645040221
 10
473.9340355509
 20
-184.5312711064
  0
LWPOLYLINE
  5
E8
330
1F
100
AcDbEntity
  8
0
  6
Continuous
 62
     7
370
    25
100
AcDbPolyline
 90
       12
 70
   128
 43
0.0
 10
648.2358571134
 20
-283.112550609
 10
648.1120957777
 20
-279.4555381199
 10
647.7415380514
 20
-275.9628782308
 10
647.1263585147
 20
-272.6550672588
 10
646.2701672855
 20
-269.5515167539
 10
645.1779888346
 20
-266.6704395846
 10
643.8562324993
 20
-264.0287430574
 10
642.3126548714
 20
-261.6419296978
 10
640.5563142782
 20
-259.5240062757
 10
638.5975176247
 20
-257.687401608
 10
636.4477599085
 20
-256.1428936212
 10
635.8795138164
 20
-255.8021079031
  0
LWPOLYLINE
  5
E9
330
1F
100
AcDbEntity
  8
0
  6
Continuous
 62
     7
370
    25
100
AcDbPolyline
 90
       32
 70
   128
 43
0.0
 10
576.2343614147
 20
-359.1217371851
 10
577.9942184685
 20
-360.0242989861
 10
580.4870048089
 20
-360.9591895797
 10
583.1298456825
 20
-361.580136938
 10
585.9072318481
 20
-361.8834970952
 10
588.8028644993
 20
-361.867489813
 10
591.7997509123
 20
-361.5322090287
 10
594.880304166
 20
-360.8796223033
 10
598.026446349
 20
-359.913559275
 10
601.219714648
 20
-358.6396891859
 10
604.4413696947
 20
-357.0654876122
 10
607.6725055364
 20
-355.2001925947
 10
610.8941605832
 20
-353.0547504263
 10
614.0874288821
 20
-350.6417514146
 10
617.2335710651
 20
-347.9753559974
 10
620.3141243189
 20
-345.0712116433
 10
623.3110107319
 20
-341.9463610261
 10
626.2066433831
 20
-338.6191420117
 10
628.9840295487
 20
-335.1090800443
 10
631.6268704222
 20
-331.4367735634
 10
634.1196567627
 20
-327.6237731235
 10
636.4477599085
 20
-323.6924549273
 10
638.5975176247
 20
-319.6658895134
 10
640.5563142782
 20
-315.5677063686
 10
642.3126548714
 20
-311.4219552611
 10
643.8562324993
 20
-307.2529651071
 10
645.1779888346
 20
-303.0852011984
 10
646.2701672855
 20
-298.9431216309
 10
647.1263585147
 20
-294.8510337744
 10
647.7415380514
 20
-290.8329516278
 10
648.1120957777
 20
-286.9124548948
 10
648.2358571134
 20
-283.112550609
  0
LWPOLYLINE
  5
EA
330
1F
100
AcDbEntity
  8
0
  6
Continuous
 62
     7
370
    25
100
AcDbPolyline
 90
       16
 70
   128
 43
0.0
 10
475.7018025038
 20
-183.5107609666
 10
475.5780411682
 20
-179.8537484775
 10
475.2074834419
 20
-176.3610885884
 10
474.5923039052
 20
-173.0532776164
 10
473.736112676
 20
-169.9497271115
 10
472.6439342251
 20
-167.0686499422
 10
471.3221778898
 20
-164.426953415
 10
469.7786002619
 20
-162.0401400554
 10
468.0222596687
 20
-159.9222166334
 10
466.0634630152
 20
-158.0856119657
 10
463.913705299
 20
-156.5411039788
 10
461.5856021531
 20
-155.2977564598
 10
459.0928158127
 20
-154.3628658662
 10
456.4499749392
 20
-153.7419185078
 10
453.6725887736
 20
-153.4385583507
 10
453.5508627536
 20
-153.4326912361
  0
LWPOLYLINE
  5
EB
330
1F
100
AcDbEntity
  8
0
  6
Continuous
 62
     7
370
    25
100
AcDbPolyline
 90
       36
 70
   128
 43
0.0
 10
396.4055071834
 20
-252.4220762062
 10
397.2671657502
 20
-253.6801257481
 10
399.0235063434
 20
-255.7980491701
 10
400.9823029969
 20
-257.6346538378
 10
403.1320607132
 20
-259.1791618247
 10
405.460163859
 20
-260.4225093437
 10
407.9529501994
 20
-261.3573999373
 10
410.595791073
 20
-261.9783472957
 10
413.3731772385
 20
-262.2817074528
 10
416.2688098897
 20
-262.2657001707
 10
419.2656963028
 20
-261.9304193864
 10
422.3462495565
 20
-261.2778326609
 10
425.4923917395
 20
-260.3117696326
 10
428.6856600385
 20
-259.0378995435
 10
431.9073150852
 20
-257.4636979698
 10
435.1384509269
 20
-255.5984029523
 10
438.3601059737
 20
-253.4529607839
 10
441.5533742726
 20
-251.0399617722
 10
444.6995164556
 20
-248.3735663551
 10
447.7800697093
 20
-245.4694220009
 10
450.7769561224
 20
-242.3445713837
 10
453.6725887736
 20
-239.0173523693
 10
456.4499749392
 20
-235.507290402
 10
459.0928158127
 20
-231.834983921
 10
461.5856021531
 20
-228.0219834811
 10
463.913705299
 20
-224.090665285
 10
466.0634630152
 20
-220.064099871
 10
468.0222596687
 20
-215.9659167262
 10
469.7786002619
 20
-211.8201656188
 10
471.3221778898
 20
-207.6511754647
 10
472.6439342251
 20
-203.483411556
 10
473.736112676
 20
-199.3413319885
 10
474.5923039052
 20
-195.2492441321
 10
475.2074834419
 20
-191.2311619855
 10
475.5780411682
 20
-187.3106652524
 10
475.7018025038
 20
-183.5107609666
  0
LWPOLYLINE
  5
EC
330
1F
100
AcDbEntity
  8
0
  6
Continuous
 62
     7
370
    25
100
AcDbPolyline
 90
       20
 70
   128
 43
0.0
 10
655.4483462815
 20
-278.9488692387
 10
655.3225026329
 20
-274.952660114
 10
654.9456129578
 20
-271.1221107389
 10
654.3195977993
 20
-267.4767407149
 10
653.4476471874
 20
-264.035126012
 10
652.3342043824
 20
-260.81480431
 10
650.9849432337
 20
-257.83218563
 10
649.4067392668
 20
-255.1024687132
 10
647.6076346473
 20
-252.6395635713
 10
645.5967972
 20
-250.4560206042
 10
643.3844736916
 20
-248.5629666466
 10
640.9819376156
 20
-246.9700482673
 10
638.4014317451
 20
-245.6853826134
 10
635.6561057466
 20
-244.7155160465
 10
632.759949172
 20
-244.0653907843
 10
629.7277201714
 20
-243.7383197163
 10
626.5748702887
 20
-243.7359695214
 10
623.3174657242
 20
-244.0583521759
 10
619.972105465
 20
-244.7038248916
 10
617.7059431478
 20
-245.3107288714
  0
LWPOLYLINE
  5
ED
330
1F
100
AcDbEntity
  8
0
  6
Continuous
 62
     7
370
    25
100
AcDbPolyline
 90
       42
 70
   128
 43
0.0
 10
558.060790746
 20
-348.6303581534
 10
558.6662280437
 20
-350.8887190762
 10
559.7796708487
 20
-354.1090407782
 10
561.1289319975
 20
-357.0916594582
 10
562.7071359644
 20
-359.821376375
 10
564.5062405839
 20
-362.284281517
 10
566.5170780312
 20
-364.467824484
 10
568.7294015396
 20
-366.3608784417
 10
571.1319376156
 20
-367.9537968209
 10
573.712443486
 20
-369.2384624748
 10
576.4577694846
 20
-370.2083290417
 10
579.3539260592
 20
-370.8584543039
 10
582.3861550598
 20
-371.185525372
 10
585.5390049425
 20
-371.1878755668
 10
588.7964095069
 20
-370.8654929123
 10
592.1417697661
 20
-370.2200201966
 10
595.5580385311
 20
-369.2547466007
 10
599.0278072792
 20
-367.9745909377
 10
602.5333948643
 20
-366.3860765872
 10
606.0569376156
 20
-364.4972982543
 10
609.5804803669
 20
-362.3178807205
 10
613.086067952
 20
-359.858929798
 10
616.5558367001
 20
-357.1329757369
 10
619.972105465
 20
-354.1539093744
 10
623.3174657242
 20
-350.9369113498
 10
626.5748702887
 20
-347.4983747476
 10
629.7277201714
 20
-343.8558215621
 10
632.759949172
 20
-340.0278134095
 10
635.6561057466
 20
-336.0338569418
 10
638.4014317451
 20
-331.8943044456
 10
640.9819376156
 20
-327.6302501317
 10
643.3844736916
 20
-323.2634226435
 10
645.5967972
 20
-318.8160743327
 10
647.6076346473
 20
-314.310867867
 10
649.4067392668
 20
-309.7707607459
 10
650.9849432337
 20
-305.2188883145
 10
652.3342043824
 20
-300.6784458714
 10
653.4476471874
 20
-296.1725704705
 10
654.3195977993
 20
-291.7242230201
 10
654.9456129578
 20
-287.356071279
 10
655.3225026329
 20
-283.0903743473
 10
655.4483462815
 20
-278.9488692387
  0
LWPOLYLINE
  5
EE
330
1F
100
AcDbEntity
  8
0
  6
Continuous
 62
     7
370
    25
100
AcDbPolyline
 90
       13
 70
   128
 43
0.0
 10
734.6443057744
 20
-324.6677235008
 10
734.5184621258
 20
-320.6715143761
 10
734.1415724507
 20
-316.8409650009
 10
733.5155572922
 20
-313.1955949769
 10
732.6436066803
 20
-309.7539802741
 10
731.5301638753
 20
-306.5336585721
 10
730.1809027266
 20
-303.5510398921
 10
728.6026987596
 20
-300.8213229753
 10
726.8035941402
 20
-298.3584178333
 10
724.7927566929
 20
-296.1748748663
 10
722.5804331845
 20
-294.2818209086
 10
720.1778971085
 20
-292.6889025294
 10
720.1750588458
 20
-292.6872637689
  0
LWPOLYLINE
  5
EF
330
1F
100
AcDbEntity
  8
0
  6
Continuous
 62
     7
370
    25
100
AcDbPolyline
 90
       34
 70
   128
 43
0.0
 10
650.3307353712
 20
-413.6742898435
 10
652.9084029789
 20
-414.9573167369
 10
655.6537289775
 20
-415.9271833038
 10
658.5498855521
 20
-416.577308566
 10
661.5821145527
 20
-416.904379634
 10
664.7349644354
 20
-416.9067298289
 10
667.9923689998
 20
-416.5843471744
 10
671.337729259
 20
-415.9388744587
 10
674.753998024
 20
-414.9736008628
 10
678.2237667721
 20
-413.6934451997
 10
681.7293543572
 20
-412.1049308493
 10
685.2528971085
 20
-410.2161525164
 10
688.7764398598
 20
-408.0367349826
 10
692.2820274448
 20
-405.5777840601
 10
695.751796193
 20
-402.851829999
 10
699.1680649579
 20
-399.8727636365
 10
702.5134252171
 20
-396.6557656119
 10
705.7708297816
 20
-393.2172290097
 10
708.9236796643
 20
-389.5746758242
 10
711.9559086649
 20
-385.7466676716
 10
714.8520652395
 20
-381.7527112039
 10
717.597391238
 20
-377.6131587077
 10
720.1778971085
 20
-373.3491043938
 10
722.5804331845
 20
-368.9822769055
 10
724.7927566929
 20
-364.5349285947
 10
726.8035941402
 20
-360.0297221291
 10
728.6026987596
 20
-355.4896150079
 10
730.1809027266
 20
-350.9377425766
 10
731.5301638753
 20
-346.3973001335
 10
732.6436066803
 20
-341.8914247326
 10
733.5155572922
 20
-337.4430772821
 10
734.1415724507
 20
-333.0749255411
 10
734.5184621258
 20
-328.8092286093
 10
734.6443057744
 20
-324.6677235008
  0
LWPOLYLINE
  5
F0
330
1F
100
AcDbEntity
  8
0
  6
Continuous
 62
     7
370
    25
100
AcDbPolyline
 90
        9
 70
   128
 43
0.0
 10
749.2460608059
 20
-339.0977368772
 10
749.1194906931
 20
-335.3111819001
 10
748.7405053371
 20
-331.6924507086
 10
748.1112755315
 20
-328.2622710673
 10
747.2354054477
 20
-325.0402907345
 10
746.1179119902
 20
-322.0449649217
 10
744.7651960605
 20
-319.293450584
 10
743.1850058927
 20
-316.8015081463
 10
741.5576820261
 20
-314.7722969104
  0
LWPOLYLINE
  5
F1
330
1F
100
AcDbEntity
  8
0
  6
Continuous
 62
     7
370
    25
100
AcDbPolyline
 90
       30
 70
   128
 43
0.0
 10
680.1489480501
 20
-421.146870092
 10
681.9961617415
 20
-421.4589581958
 10
684.9136653501
 20
-421.6635586094
 10
687.9465188684
 20
-421.5413642148
 10
691.0773503863
 20
-421.0930749305
 10
694.2882267843
 20
-420.3212585169
 10
697.5607564531
 20
-419.2303358684
 10
700.8761946392
 20
-417.8265556912
 10
704.2155508129
 20
-416.1179587112
 10
707.5596974445
 20
-414.1143316169
 10
710.8894795648
 20
-411.8271510031
 10
714.1858244834
 20
-409.269517633
 10
717.4298510352
 20
-406.4560813991
 10
720.6029777299
 20
-403.4029574093
 10
723.687029185
 20
-400.1276336813
 10
726.6643402332
 20
-396.6488709728
 10
729.5178571063
 20
-392.9865953217
 10
732.2312351182
 20
-389.1617839111
 10
734.7889322853
 20
-385.1963449144
 10
737.1762983499
 20
-381.1129920072
 10
739.3796586954
 20
-376.9351142651
 10
741.3863926731
 20
-372.6866421934
 10
743.1850058927
 20
-368.3919106554
 10
744.7651960605
 20
-364.0755194845
 10
746.1179119902
 20
-359.7621925784
 10
747.2354054477
 20
-355.476636283
 10
748.1112755315
 20
-351.2433978767
 10
748.7405053371
 20
-347.0867249657
 10
749.1194906931
 20
-343.0304265959
 10
749.2460608059
 20
-339.0977368772
  0
LWPOLYLINE
  5
F2
330
1F
100
AcDbEntity
  8
0
  6
Continuous
 62
     7
370
    25
100
AcDbPolyline
 90
       12
 70
   128
 43
0.0
 10
810.0572439879
 20
-374.2032856856
 10
809.9306738752
 20
-370.4167307085
 10
809.5516885191
 20
-366.797999517
 10
808.9224587135
 20
-363.3678198757
 10
808.0465886297
 20
-360.1458395428
 10
806.9290951723
 20
-357.1505137301
 10
805.5763792425
 20
-354.3989993924
 10
803.9961890747
 20
-351.9070569547
 10
802.1975758552
 20
-349.6889600377
 10
800.1908418774
 20
-347.7574136996
 10
797.987481532
 20
-346.1234816629
 10
797.1105305586
 20
-345.5879852813
  0
LWPOLYLINE
  5
F3
330
1F
100
AcDbEntity
  8
0
  6
Continuous
 62
     7
370
    25
100
AcDbPolyline
 90
       33
 70
   128
 43
0.0
 10
734.6156097689
 20
-453.8440930789
 10
734.9101719635
 20
-454.0109645364
 10
737.3844757876
 20
-455.1814746214
 10
740.0219024212
 20
-456.0342837151
 10
742.8073449235
 20
-456.5645070042
 10
745.7248485321
 20
-456.7691074178
 10
748.7577020505
 20
-456.6469130232
 10
751.8885335684
 20
-456.1986237389
 10
755.0994099663
 20
-455.4268073252
 10
758.3719396352
 20
-454.3358846768
 10
761.6873778213
 20
-452.9321044996
 10
765.026733995
 20
-451.2235075195
 10
768.3708806265
 20
-449.2198804253
 10
771.7006627468
 20
-446.9326998114
 10
774.9970076655
 20
-444.3750664414
 10
778.2410342173
 20
-441.5616302075
 10
781.4141609119
 20
-438.5085062177
 10
784.498212367
 20
-435.2331824897
 10
787.4755234152
 20
-431.7544197812
 10
790.3290402884
 20
-428.0921441301
 10
793.0424183003
 20
-424.2673327195
 10
795.6001154674
 20
-420.3018937228
 10
797.987481532
 20
-416.2185408156
 10
800.1908418774
 20
-412.0406630735
 10
802.1975758552
 20
-407.7921910018
 10
803.9961890747
 20
-403.4974594638
 10
805.5763792425
 20
-399.1810682929
 10
806.9290951723
 20
-394.8677413868
 10
808.0465886297
 20
-390.5821850914
 10
808.9224587135
 20
-386.3489466851
 10
809.5516885191
 20
-382.1922737741
 10
809.9306738752
 20
-378.1359754043
 10
810.0572439879
 20
-374.2032856856
  0
ENDSEC
  0
SECTION
  2
OBJECTS
  0
DICTIONARY
  5
C
330
0
100
AcDbDictionary
281
     1
  3
ACAD_GROUP
350
D
  3
ACAD_LAYOUT
350
1A
  3
ACAD_MLINESTYLE
350
17
  3
ACAD_PLOTSETTINGS
350
19
  3
ACAD_PLOTSTYLENAME
350
E
  3
ACAD_SCALELIST
350
47
  3
DWGPROPS
350
F4
  0
DICTIONARY
  5
D
102
{ACAD_REACTORS
330
C
102
}
330
C
100
AcDbDictionary
281
     1
  0
DICTIONARY
  5
1A
102
{ACAD_REACTORS
330
C
102
}
330
C
100
AcDbDictionary
281
     1
  3
Layout1
350
1E
  3
Layout2
350
26
  3
Model
350
22
  0
DICTIONARY
  5
17
102
{ACAD_REACTORS
330
C
102
}
330
C
100
AcDbDictionary
281
     1
  3
Standard
350
18
  0
DICTIONARY
  5
19
102
{ACAD_REACTORS
330
C
102
}
330
C
100
AcDbDictionary
281
     1
  0
ACDBDICTIONARYWDFLT
  5
E
102
{ACAD_REACTORS
330
C
102
}
330
C
100
AcDbDictionary
281
     1
  3
Normal
350
F
100
AcDbDictionaryWithDefault
340
F
  0
DICTIONARY
  5
47
102
{ACAD_REACTORS
330
C
102
}
330
C
100
AcDbDictionary
281
     1
  3
A0
350
48
  3
A1
350
49
  3
A2
350
4A
  3
A3
350
4B
  3
A4
350
4C
  3
A5
350
4D
  3
A6
350
4E
  3
A7
350
4F
  3
A8
350
50
  3
A9
350
51
  3
B0
350
52
  3
B1
350
53
  3
B2
350
54
  3
B3
350
55
  3
B4
350
56
  3
B5
350
57
  3
B6
350
58
  3
B7
350
59
  3
B8
350
5A
  3
B9
350
5B
  3
C0
350
5C
  3
C1
350
5D
  3
C2
350
5E
  3
C3
350
5F
  3
C4
350
60
  3
C5
350
61
  3
C6
350
62
  3
C7
350
63
  3
C8
350
64
  3
C9
350
65
  3
D0
350
66
  3
D1
350
67
  3
D2
350
68
  0
XRECORD
  5
F4
102
{ACAD_REACTORS
330
C
102
}
330
C
100
AcDbXrecord
280
     1
  1
DWGPROPS COOKIE
  2

  3

  4

  6

  7

  8
b.kav
  9

300
=
301
=
302
=
303
=
304
=
305
=
306
=
307
=
308
=
309
=
 40
0.0
 41
2459935.584683796
 42
2459935.584683981
  1

 90
        0
  0
LAYOUT
  5
1E
102
{ACAD_REACTORS
330
1A
102
}
330
1A
100
AcDbPlotSettings
  1

  2
none_device
  4

  6

 40
0.0
 41
0.0
 42
0.0
 43
0.0
 44
0.0
 45
0.0
 46
0.0
 47
0.0
 48
0.0
 49
0.0
140
0.0
141
0.0
142
1.0
143
1.0
 70
   688
 72
     1
 73
     0
 74
     5
  7

 75
    16
147
1.0
148
0.0
149
0.0
100
AcDbLayout
  1
Layout1
 70
     1
 71
     1
 10
0.0
 20
0.0
 11
420.0
 21
297.0
 12
0.0
 22
0.0
 32
0.0
 14
1.0000000000E+20
 24
1.0000000000E+20
 34
1.0000000000E+20
 15
-1.0000000000E+20
 25
-1.0000000000E+20
 35
-1.0000000000E+20
146
0.0
 13
0.0
 23
0.0
 33
0.0
 16
1.0
 26
0.0
 36
0.0
 17
0.0
 27
1.0
 37
0.0
 76
     0
330
1B
  0
LAYOUT
  5
26
102
{ACAD_REACTORS
330
1A
102
}
330
1A
100
AcDbPlotSettings
  1

  2
none_device
  4

  6

 40
0.0
 41
0.0
 42
0.0
 43
0.0
 44
0.0
 45
0.0
 46
0.0
 47
0.0
 48
0.0
 49
0.0
140
0.0
141
0.0
142
1.0
143
1.0
 70
   688
 72
     1
 73
     0
 74
     5
  7

 75
    16
147
1.0
148
0.0
149
0.0
100
AcDbLayout
  1
Layout2
 70
     1
 71
     2
 10
0.0
 20
0.0
 11
0.0
 21
0.0
 12
0.0
 22
0.0
 32
0.0
 14
0.0
 24
0.0
 34
0.0
 15
0.0
 25
0.0
 35
0.0
146
0.0
 13
0.0
 23
0.0
 33
0.0
 16
1.0
 26
0.0
 36
0.0
 17
0.0
 27
1.0
 37
0.0
 76
     0
330
23
  0
LAYOUT
  5
22
102
{ACAD_REACTORS
330
1A
102
}
330
1A
100
AcDbPlotSettings
  1

  2
none_device
  4
Letter_(8.50_x_11.00_Inches)
  6

 40
6.35
 41
6.35
 42
6.35000508
 43
6.35000508
 44
215.9
 45
279.4
 46
0.0
 47
0.0
 48
0.0
 49
0.0
140
0.0
141
0.0
142
1.0
143
1.0
 70
  1712
 72
     1
 73
     0
 74
     0
  7

 75
     0
147
1.0
148
0.0
149
0.0
100
AcDbLayout
  1
Model
 70
     1
 71
     0
 10
0.0
 20
0.0
 11
279.4
 21
215.9
 12
0.0
 22
0.0
 32
0.0
 14
0.0
 24
0.0
 34
0.0
 15
279.4
 25
215.9
 35
0.0
146
0.0
 13
0.0
 23
0.0
 33
0.0
 16
1.0
 26
0.0
 36
0.0
 17
0.0
 27
1.0
 37
0.0
 76
     0
330
1F
331
29
  0
MLINESTYLE
  5
18
102
{ACAD_REACTORS
330
17
102
}
330
17
100
AcDbMlineStyle
  2
Standard
 70
     0
  3

 62
   256
 51
90.0
 52
90.0
 71
     2
 49
0.5
 62
   256
  6
BYLAYER
 49
-0.5
 62
   256
  6
BYLAYER
  0
ACDBPLACEHOLDER
  5
F
102
{ACAD_REACTORS
330
E
102
}
330
E
  0
SCALE
  5
48
102
{ACAD_REACTORS
330
47
102
}
330
47
100
AcDbScale
 70
     0
300
1:1
140
1.0
141
1.0
290
     1
  0
SCALE
  5
49
102
{ACAD_REACTORS
330
47
102
}
330
47
100
AcDbScale
 70
     0
300
1:2
140
1.0
141
2.0
290
     0
  0
SCALE
  5
4A
102
{ACAD_REACTORS
330
47
102
}
330
47
100
AcDbScale
 70
     0
300
1:4
140
1.0
141
4.0
290
     0
  0
SCALE
  5
4B
102
{ACAD_REACTORS
330
47
102
}
330
47
100
AcDbScale
 70
     0
300
1:5
140
1.0
141
5.0
290
     0
  0
SCALE
  5
4C
102
{ACAD_REACTORS
330
47
102
}
330
47
100
AcDbScale
 70
     0
300
1:8
140
1.0
141
8.0
290
     0
  0
SCALE
  5
4D
102
{ACAD_REACTORS
330
47
102
}
330
47
100
AcDbScale
 70
     0
300
1:10
140
1.0
141
10.0
290
     0
  0
SCALE
  5
4E
102
{ACAD_REACTORS
330
47
102
}
330
47
100
AcDbScale
 70
     0
300
1:16
140
1.0
141
16.0
290
     0
  0
SCALE
  5
4F
102
{ACAD_REACTORS
330
47
102
}
330
47
100
AcDbScale
 70
     0
300
1:20
140
1.0
141
20.0
290
     0
  0
SCALE
  5
50
102
{ACAD_REACTORS
330
47
102
}
330
47
100
AcDbScale
 70
     0
300
1:30
140
1.0
141
30.0
290
     0
  0
SCALE
  5
51
102
{ACAD_REACTORS
330
47
102
}
330
47
100
AcDbScale
 70
     0
300
1:40
140
1.0
141
40.0
290
     0
  0
SCALE
  5
52
102
{ACAD_REACTORS
330
47
102
}
330
47
100
AcDbScale
 70
     0
300
1:50
140
1.0
141
50.0
290
     0
  0
SCALE
  5
53
102
{ACAD_REACTORS
330
47
102
}
330
47
100
AcDbScale
 70
     0
300
1:100
140
1.0
141
100.0
290
     0
  0
SCALE
  5
54
102
{ACAD_REACTORS
330
47
102
}
330
47
100
AcDbScale
 70
     0
300
2:1
140
2.0
141
1.0
290
     0
  0
SCALE
  5
55
102
{ACAD_REACTORS
330
47
102
}
330
47
100
AcDbScale
 70
     0
300
4:1
140
4.0
141
1.0
290
     0
  0
SCALE
  5
56
102
{ACAD_REACTORS
330
47
102
}
330
47
100
AcDbScale
 70
     0
300
8:1
140
8.0
141
1.0
290
     0
  0
SCALE
  5
57
102
{ACAD_REACTORS
330
47
102
}
330
47
100
AcDbScale
 70
     0
300
10:1
140
10.0
141
1.0
290
     0
  0
SCALE
  5
58
102
{ACAD_REACTORS
330
47
102
}
330
47
100
AcDbScale
 70
     0
300
100:1
140
100.0
141
1.0
290
     0
  0
SCALE
  5
59
102
{ACAD_REACTORS
330
47
102
}
330
47
100
AcDbScale
 70
     0
300
1/128" = 1'-0"
140
0.0078125
141
12.0
290
     0
  0
SCALE
  5
5A
102
{ACAD_REACTORS
330
47
102
}
330
47
100
AcDbScale
 70
     0
300
1/64" = 1'-0"
140
0.015625
141
12.0
290
     0
  0
SCALE
  5
5B
102
{ACAD_REACTORS
330
47
102
}
330
47
100
AcDbScale
 70
     0
300
1/32" = 1'-0"
140
0.03125
141
12.0
290
     0
  0
SCALE
  5
5C
102
{ACAD_REACTORS
330
47
102
}
330
47
100
AcDbScale
 70
     0
300
1/16" = 1'-0"
140
0.0625
141
12.0
290
     0
  0
SCALE
  5
5D
102
{ACAD_REACTORS
330
47
102
}
330
47
100
AcDbScale
 70
     0
300
3/32" = 1'-0"
140
0.09375
141
12.0
290
     0
  0
SCALE
  5
5E
102
{ACAD_REACTORS
330
47
102
}
330
47
100
AcDbScale
 70
     0
300
1/8" = 1'-0"
140
0.125
141
12.0
290
     0
  0
SCALE
  5
5F
102
{ACAD_REACTORS
330
47
102
}
330
47
100
AcDbScale
 70
     0
300
3/16" = 1'-0"
140
0.1875
141
12.0
290
     0
  0
SCALE
  5
60
102
{ACAD_REACTORS
330
47
102
}
330
47
100
AcDbScale
 70
     0
300
1/4" = 1'-0"
140
0.25
141
12.0
290
     0
  0
SCALE
  5
61
102
{ACAD_REACTORS
330
47
102
}
330
47
100
AcDbScale
 70
     0
300
3/8" = 1'-0"
140
0.375
141
12.0
290
     0
  0
SCALE
  5
62
102
{ACAD_REACTORS
330
47
102
}
330
47
100
AcDbScale
 70
     0
300
1/2" = 1'-0"
140
0.5
141
12.0
290
     0
  0
SCALE
  5
63
102
{ACAD_REACTORS
330
47
102
}
330
47
100
AcDbScale
 70
     0
300
3/4" = 1'-0"
140
0.75
141
12.0
290
     0
  0
SCALE
  5
64
102
{ACAD_REACTORS
330
47
102
}
330
47
100
AcDbScale
 70
     0
300
1" = 1'-0"
140
1.0
141
12.0
290
     0
  0
SCALE
  5
65
102
{ACAD_REACTORS
330
47
102
}
330
47
100
AcDbScale
 70
     0
300
1-1/2" = 1'-0"
140
1.5
141
12.0
290
     0
  0
SCALE
  5
66
102
{ACAD_REACTORS
330
47
102
}
330
47
100
AcDbScale
 70
     0
300
3" = 1'-0"
140
3.0
141
12.0
290
     0
  0
SCALE
  5
67
102
{ACAD_REACTORS
330
47
102
}
330
47
100
AcDbScale
 70
     0
300
6" = 1'-0"
140
6.0
141
12.0
290
     0
  0
SCALE
  5
68
102
{ACAD_REACTORS
330
47
102
}
330
47
100
AcDbScale
 70
     0
300
1'-0" = 1'-0"
140
12.0
141
12.0
290
     0
  0
ENDSEC
  0
EOF
